Esercizi per rinforzare l’anulare e il mignolo

 

Vuoi acquistare i prodotti recensiti su strumenti musicali info?


Entra nel negozio

Oggi vediamo invece come rendere più forti le nostre dita, la chitarra richiede forza eh, quindi se siete debolucci affaticherete velocemente la mano. Con gli esercizi che sto per svelarvi potete allenare sopratutto l’anulare e il mignolo.
Potete svolgere questo esercizio anche con con plettrata alternata, suonandolo in successione con due dita (indice-medio, indice-anulare, medio-anulare, medio-mignolo, anulare-mignolo) e su tutta la tastiera:

E-----------------------------------------1-2-3-4-2-3-4-5--------------------------
B---------------------------------1-2-3-4-----------------2-3-4-5------------------
G-------------------------1-2-3-4---------------------------------2-3-4-5----------
D-----------------1-2-3-4-------------------------------------------------2-3-4-5--
A---------1-2-3-4------------------------------------------------------------------
E-1-2-3-4--------------------------------------------------------------------------

E---------------------------------------------------------3-4-5-6--
B-------------------------------------------------3-4-5-6----------
G-----------------------------------------3-4-5-6------------------
D---------------------------------3-4-5-6-------------------------- ecc
A-2-3-4-5-----------------3-4-5-6----------------------------------
E---------2-3-4-5-3-4-5-6------------------------------------------

Utilizzate una coppia composta da 2 dita per suonare su tutti i 4 tasti e spostate la mano una volta finito di suonare le prime 2 note.

Questi altri 2 esercizi permettono di sciogliere le dita anulare e il mignolo (non dovete utilizzare l’indice, solo le altre dita).Eseguite questi allenamenti su ogni tasto facendovi tutta la tastiera, prima in modo lento e preciso per poi aumentare gradualmente la velocità prestanto attenzione alla pulizia e precisione dell’esercizio.

1)

E----------------------------------------------------
B-----------------------1-2-1------------------------
G-----------------1-2-3-------3-2-1------------------
D-----------1-2-3-------------------3-2-1------------
A-----1-2-3-------------------------------3-2-1------
E-2-3-------------------------------------------3-2--

2)

E---------------------1-2--
B-----------------1-2------
G-------------1-2----------
D---------1-2--------------
A-----1-2------------------
E-1-2----------------------

In questo allenamento dovete utilizzare tutte e quattro le dita:

E-7-8-8-9-8-9-9-10-9-10-9-10-9-10----------------------------------------------------
B---------------------------------7-8-8-9-8-9-9-10-9-10-9-10-9-10--------------------
G------------------------------------------------------------------7-8-8-9-8-9-9-10--
D------------------------------------------------------------------------------------
A------------------------------------------------------------------------------------
E------------------------------------------------------------------------------------

E------------------------------------------------------------------------------------

B------------------------------------------------------------------------------------
G-9-10-9-10-9-10---------------------------------------------------------------------
D----------------7-8-8-9-8-9-9-10-9-10-9-10-9-10-------------------------------------
A------------------------------------------------7-8-8-9-8-9-9-10-9-10-9-10-9-10-----
E--------------------------------------------------------------------------------7-8-

E------------------------------------------------------------------------------------

B------------------------------------------------------------------------------------
G------------------------------------------------------------------------------------
D-------------------------------------------------------------7-8-8-9-8-9-9-10-9-10--
A-----------------------------7-8-8-9-8-9-9-10-9-10-9-10-9-10------------------------
E-8-9-8-9-9-10-9-10-9-10-9-10--------------------------------------------------------

E---------------------------------------------------------------------------7-8-8-9--

B-------------------------------------------7-8-8-9-8-9-9-10-9-10-9-10-9-10----------
G-----------7-8-8-9-8-9-9-10-9-10-9-10-9-10------------------------------------------
D-9-10-9-10--------------------------------------------------------------------------
A------------------------------------------------------------------------------------
E------------------------------------------------------------------------------------

E-8-9-9-10-9-10-9-10-9-10-

B-------------------------
G-------------------------
D-------------------------
A-------------------------
E-------------------------

Infine questo allenamento permette di rafforzare il mignolo (ricorda di utilizzare solo l’indice e il mignolo):

E---------------------5-7-5----------------------
B-----------------5-7-------7-5------------------
G-------------4-6---------------6-4--------------
D---------4-7-----------------------7-4----------
A-----4-7-------------------------------7-4------
E-5-7---------------------------------------7-5--